ISO-10303-21;
HEADER;
FILE_DESCRIPTION (( 'STEP AP214' ),
    '1' );
FILE_NAME ('6288650.STEP',
    '2025-02-13T14:19:22',
    ( '' ),
    ( '' ),
    'SwSTEP 2.0',
    'SolidWorks 2024',
    '' );
FILE_SCHEMA (( 'AUTOMOTIVE_DESIGN' ));
ENDSEC;

DATA;
#1 = SURFACE_STYLE_FILL_AREA ( #118 ) ;
#2 = CARTESIAN_POINT ( 'NONE',  ( 0.000000000000000000, 0.000000000000000000, 150.0000000000000000 ) ) ;
#3 = DIRECTION ( 'NONE',  ( 1.000000000000000000, 0.000000000000000000, -0.000000000000000000 ) ) ;
#4 =( LENGTH_UNIT ( ) NAMED_UNIT ( * ) SI_UNIT ( .MILLI., .METRE. ) );
#5 = ORIENTED_EDGE ( 'NONE', *, *, #56, .F. ) ;
#6 = ADVANCED_FACE ( 'NONE', ( #74 ), #113, .T. ) ;
#7 = EDGE_LOOP ( 'NONE', ( #83, #72, #57, #59 ) ) ;
#8 = VECTOR ( 'NONE', #21, 1000.000000000000000 ) ;
#9 = CARTESIAN_POINT ( 'NONE',  ( 0.000000000000000000, 0.000000000000000000, 150.0000000000000000 ) ) ;
#10 = DIRECTION ( 'NONE',  ( 0.000000000000000000, 0.000000000000000000, 1.000000000000000000 ) ) ;
#11 = APPLICATION_PROTOCOL_DEFINITION ( 'draft international standard', 'automotive_design', 1998, #34 ) ;
#12 = VERTEX_POINT ( 'NONE', #38 ) ;
#13 = CIRCLE ( 'NONE', #106, 25.00000000000000000 ) ;
#14 = DIRECTION ( 'NONE',  ( 0.000000000000000000, 0.000000000000000000, 1.000000000000000000 ) ) ;
#15 = AXIS2_PLACEMENT_3D ( 'NONE', #16, #55, #3 ) ;
#16 = CARTESIAN_POINT ( 'NONE',  ( 7.191724035989500052, 19.73015725710697410, -150.0000000000000000 ) ) ;
#17 = VERTEX_POINT ( 'NONE', #123 ) ;
#18 = ORIENTED_EDGE ( 'NONE', *, *, #100, .T. ) ;
#19 = ORIENTED_EDGE ( 'NONE', *, *, #98, .F. ) ;
#20 = CARTESIAN_POINT ( 'NONE',  ( 25.00000000000000000, 3.061616997868383043E-15, 150.0000000000000000 ) ) ;
#21 = DIRECTION ( 'NONE',  ( -0.000000000000000000, -0.000000000000000000, -1.000000000000000000 ) ) ;
#22 =( NAMED_UNIT ( * ) PLANE_ANGLE_UNIT ( ) SI_UNIT ( $, .RADIAN. ) );
#23 = PRODUCT ( '6288650', '6288650', '', ( #80 ) ) ;
#24 = PRESENTATION_STYLE_ASSIGNMENT (( #32 ) ) ;
#25 = AXIS2_PLACEMENT_3D ( 'NONE', #9, #43, #36 ) ;
#26 = FACE_OUTER_BOUND ( 'NONE', #40, .T. ) ;
#27 = PRESENTATION_LAYER_ASSIGNMENT (  '', '', ( #89 ) ) ;
#28 = ORIENTED_EDGE ( 'NONE', *, *, #98, .T. ) ;
#29 = VECTOR ( 'NONE', #75, 1000.000000000000000 ) ;
#30 = EDGE_LOOP ( 'NONE', ( #92, #111 ) ) ;
#31 = FACE_OUTER_BOUND ( 'NONE', #7, .T. ) ;
#32 = SURFACE_STYLE_USAGE ( .BOTH. , #33 ) ;
#33 = SURFACE_SIDE_STYLE ('',( #1 ) ) ;
#34 = APPLICATION_CONTEXT ( 'automotive_design' ) ;
#35 = ADVANCED_FACE ( 'NONE', ( #26 ), #69, .F. ) ;
#36 = DIRECTION ( 'NONE',  ( 1.000000000000000000, 0.000000000000000000, 0.000000000000000000 ) ) ;
#37 = CIRCLE ( 'NONE', #25, 25.00000000000000000 ) ;
#38 = CARTESIAN_POINT ( 'NONE',  ( -25.00000000000000000, 0.000000000000000000, -150.0000000000000000 ) ) ;
#39 = AXIS2_PLACEMENT_3D ( 'NONE', #46, #122, #90 ) ;
#40 = EDGE_LOOP ( 'NONE', ( #19, #5 ) ) ;
#41 = AXIS2_PLACEMENT_3D ( 'NONE', #61, #102, #91 ) ;
#42 =( NAMED_UNIT ( * ) PLANE_ANGLE_UNIT ( ) SI_UNIT ( $, .RADIAN. ) );
#43 = DIRECTION ( 'NONE',  ( 0.000000000000000000, 0.000000000000000000, 1.000000000000000000 ) ) ;
#44 = DIRECTION ( 'NONE',  ( 1.000000000000000000, 0.000000000000000000, 0.000000000000000000 ) ) ;
#45 = PRODUCT_DEFINITION_CONTEXT ( 'detailed design', #60, 'design' ) ;
#46 = CARTESIAN_POINT ( 'NONE',  ( 0.000000000000000000, 0.000000000000000000, 0.000000000000000000 ) ) ;
#47 = EDGE_CURVE ( 'NONE', #112, #17, #86, .T. ) ;
#48 = COLOUR_RGB ( '',0.7921568627450980005, 0.8196078431372548767, 0.9333333333333333481 ) ;
#49 = PRODUCT_RELATED_PRODUCT_CATEGORY ( 'part', '', ( #23 ) ) ;
#50 = ADVANCED_FACE ( 'NONE', ( #31 ), #87, .T. ) ;
#51 = AXIS2_PLACEMENT_3D ( 'NONE', #66, #78, #76 ) ;
#52 = CARTESIAN_POINT ( 'NONE',  ( 0.000000000000000000, 0.000000000000000000, -150.0000000000000000 ) ) ;
#53 = DIRECTION ( 'NONE',  ( -1.000000000000000000, 0.000000000000000000, 0.000000000000000000 ) ) ;
#54 = CARTESIAN_POINT ( 'NONE',  ( -25.00000000000000000, 0.000000000000000000, 150.0000000000000000 ) ) ;
#55 = DIRECTION ( 'NONE',  ( 0.000000000000000000, 0.000000000000000000, 1.000000000000000000 ) ) ;
#56 = EDGE_CURVE ( 'NONE', #17, #12, #13, .T. ) ;
#57 = ORIENTED_EDGE ( 'NONE', *, *, #56, .T. ) ;
#58 = AXIS2_PLACEMENT_3D ( 'NONE', #104, #14, #44 ) ;
#59 = ORIENTED_EDGE ( 'NONE', *, *, #100, .F. ) ;
#60 = APPLICATION_CONTEXT ( 'automotive_design' ) ;
#61 = CARTESIAN_POINT ( 'NONE',  ( 7.191724035989500052, 19.73015725710697410, 150.0000000000000000 ) ) ;
#62 = DIRECTION ( 'NONE',  ( -0.000000000000000000, -0.000000000000000000, -1.000000000000000000 ) ) ;
#63 = MANIFOLD_SOLID_BREP ( 'DeleteFace2', #68 ) ;
#64 = PRODUCT_DEFINITION_SHAPE ( 'NONE', 'NONE',  #73 ) ;
#65 = CYLINDRICAL_SURFACE ( 'NONE', #103, 25.00000000000000000 ) ;
#66 = CARTESIAN_POINT ( 'NONE',  ( 0.000000000000000000, 0.000000000000000000, -150.0000000000000000 ) ) ;
#67 = UNCERTAINTY_MEASURE_WITH_UNIT (LENGTH_MEASURE( 1.000000000000000082E-05 ), #4, 'distance_accuracy_value', 'NONE');
#68 = CLOSED_SHELL ( 'NONE', ( #50, #6, #35, #115 ) ) ;
#69 = PLANE ( 'NONE',  #15 ) ;
#70 = ORIENTED_EDGE ( 'NONE', *, *, #47, .F. ) ;
#71 = EDGE_CURVE ( 'NONE', #110, #112, #37, .T. ) ;
#72 = ORIENTED_EDGE ( 'NONE', *, *, #47, .T. ) ;
#73 = PRODUCT_DEFINITION ( 'UNKNOWN', '', #82, #45 ) ;
#74 = FACE_OUTER_BOUND ( 'NONE', #30, .T. ) ;
#75 = DIRECTION ( 'NONE',  ( -0.000000000000000000, -0.000000000000000000, -1.000000000000000000 ) ) ;
#76 = DIRECTION ( 'NONE',  ( 1.000000000000000000, 0.000000000000000000, 0.000000000000000000 ) ) ;
#77 = FILL_AREA_STYLE_COLOUR ( '', #48 ) ;
#78 = DIRECTION ( 'NONE',  ( 0.000000000000000000, 0.000000000000000000, 1.000000000000000000 ) ) ;
#79 =( GEOMETRIC_REPRESENTATION_CONTEXT ( 3 ) GLOBAL_UNCERTAINTY_ASSIGNED_CONTEXT ( ( #67 ) ) GLOBAL_UNIT_ASSIGNED_CONTEXT ( ( #4, #22, #93 ) ) REPRESENTATION_CONTEXT ( 'NONE', 'WORKASPACE' ) );
#80 = PRODUCT_CONTEXT ( 'NONE', #34, 'mechanical' ) ;
#81 = ORIENTED_EDGE ( 'NONE', *, *, #71, .F. ) ;
#82 = PRODUCT_DEFINITION_FORMATION_WITH_SPECIFIED_SOURCE ( 'ANY', '', #23, .NOT_KNOWN. ) ;
#83 = ORIENTED_EDGE ( 'NONE', *, *, #121, .F. ) ;
#84 = CARTESIAN_POINT ( 'NONE',  ( -25.00000000000000000, 0.000000000000000000, 150.0000000000000000 ) ) ;
#85 = DIRECTION ( 'NONE',  ( 1.000000000000000000, 0.000000000000000000, 0.000000000000000000 ) ) ;
#86 = LINE ( 'NONE', #20, #29 ) ;
#87 = CYLINDRICAL_SURFACE ( 'NONE', #94, 25.00000000000000000 ) ;
#88 = CIRCLE ( 'NONE', #58, 25.00000000000000000 ) ;
#89 = STYLED_ITEM ( 'NONE', ( #24 ), #63 ) ;
#90 = DIRECTION ( 'NONE',  ( 1.000000000000000000, 0.000000000000000000, 0.000000000000000000 ) ) ;
#91 = DIRECTION ( 'NONE',  ( 1.000000000000000000, 0.000000000000000000, -0.000000000000000000 ) ) ;
#92 = ORIENTED_EDGE ( 'NONE', *, *, #71, .T. ) ;
#93 =( NAMED_UNIT ( * ) SI_UNIT ( $, .STERADIAN. ) SOLID_ANGLE_UNIT ( ) );
#94 = AXIS2_PLACEMENT_3D ( 'NONE', #2, #107, #53 ) ;
#95 =( LENGTH_UNIT ( ) NAMED_UNIT ( * ) SI_UNIT ( .MILLI., .METRE. ) );
#96 =( NAMED_UNIT ( * ) SI_UNIT ( $, .STERADIAN. ) SOLID_ANGLE_UNIT ( ) );
#97 = FACE_OUTER_BOUND ( 'NONE', #125, .T. ) ;
#98 = EDGE_CURVE ( 'NONE', #12, #17, #109, .T. ) ;
#99 = ADVANCED_BREP_SHAPE_REPRESENTATION ( '6288650', ( #63, #39 ), #108 ) ;
#100 = EDGE_CURVE ( 'NONE', #110, #12, #116, .T. ) ;
#101 = UNCERTAINTY_MEASURE_WITH_UNIT (LENGTH_MEASURE( 1.000000000000000082E-05 ), #95, 'distance_accuracy_value', 'NONE');
#102 = DIRECTION ( 'NONE',  ( 0.000000000000000000, 0.000000000000000000, 1.000000000000000000 ) ) ;
#103 = AXIS2_PLACEMENT_3D ( 'NONE', #114, #62, #105 ) ;
#104 = CARTESIAN_POINT ( 'NONE',  ( 0.000000000000000000, 0.000000000000000000, 150.0000000000000000 ) ) ;
#105 = DIRECTION ( 'NONE',  ( -1.000000000000000000, 0.000000000000000000, 0.000000000000000000 ) ) ;
#106 = AXIS2_PLACEMENT_3D ( 'NONE', #52, #10, #85 ) ;
#107 = DIRECTION ( 'NONE',  ( -0.000000000000000000, -0.000000000000000000, -1.000000000000000000 ) ) ;
#108 =( GEOMETRIC_REPRESENTATION_CONTEXT ( 3 ) GLOBAL_UNCERTAINTY_ASSIGNED_CONTEXT ( ( #101 ) ) GLOBAL_UNIT_ASSIGNED_CONTEXT ( ( #95, #42, #96 ) ) REPRESENTATION_CONTEXT ( 'NONE', 'WORKASPACE' ) );
#109 = CIRCLE ( 'NONE', #51, 25.00000000000000000 ) ;
#110 = VERTEX_POINT ( 'NONE', #84 ) ;
#111 = ORIENTED_EDGE ( 'NONE', *, *, #121, .T. ) ;
#112 = VERTEX_POINT ( 'NONE', #117 ) ;
#113 = PLANE ( 'NONE',  #41 ) ;
#114 = CARTESIAN_POINT ( 'NONE',  ( 0.000000000000000000, 0.000000000000000000, 150.0000000000000000 ) ) ;
#115 = ADVANCED_FACE ( 'NONE', ( #97 ), #65, .T. ) ;
#116 = LINE ( 'NONE', #54, #8 ) ;
#117 = CARTESIAN_POINT ( 'NONE',  ( 25.00000000000000000, 3.061616997868383043E-15, 150.0000000000000000 ) ) ;
#118 = FILL_AREA_STYLE ('',( #77 ) ) ;
#119 = APPLICATION_PROTOCOL_DEFINITION ( 'draft international standard', 'automotive_design', 1998, #60 ) ;
#120 = SHAPE_DEFINITION_REPRESENTATION ( #64, #99 ) ;
#121 = EDGE_CURVE ( 'NONE', #112, #110, #88, .T. ) ;
#122 = DIRECTION ( 'NONE',  ( 0.000000000000000000, 0.000000000000000000, 1.000000000000000000 ) ) ;
#123 = CARTESIAN_POINT ( 'NONE',  ( 25.00000000000000000, 3.061616997868383043E-15, -150.0000000000000000 ) ) ;
#124 = MECHANICAL_DESIGN_GEOMETRIC_PRESENTATION_REPRESENTATION (  '', ( #89 ), #79 ) ;
#125 = EDGE_LOOP ( 'NONE', ( #70, #81, #18, #28 ) ) ;
ENDSEC;
END-ISO-10303-21;
